Оцените, пожалуйста, с помощью шкалы




Скачати 51.46 Kb.
НазваОцените, пожалуйста, с помощью шкалы
Дата конвертації23.06.2013
Розмір51.46 Kb.
ТипДокументы
mir.zavantag.com > Философия > Документы
Бланк (регистрационный лист)
Ф И О _________________ Группа ________________________Дата______________________
Возраст_________ Пол ______ Образование_______________ Род деятельности___________________

Оцените, пожалуйста, с помощью шкалы


верно с

ограничениями скорее не верно не верно

0--------------------0--------------------0--------------------0---------------------0------------------------0

верно скорее верно не верно

с ограничениями

насколько приведённое высказывание подходит Вам, не обращая внимания на небольшие ситуативные отклонения





^ Насколько мне подходит высказывание

верно не верно

  1. Часто я бросаю даже важную деятельность, если усилия, которые требуются, становятся слишком неприятными.





0---------0----------0---------0----------0---------0

  1. Я чувствую, что те задачи, которые передо мной стоят, представляют для меня ценность





0---------0----------0---------0----------0---------0

  1. Для меня что-то имеет значение лишь тогда, когда это соответствует моему желанию





0---------0----------0---------0----------0---------0

  1. В моей жизни нет ничего ценного.




0---------0----------0---------0----------0---------0

  1. Больше всего мне нравится заниматься самим собой – моими заботами, желаниями, мечтами, страхами





0---------0----------0---------0----------0---------0

  1. Обычно я бываю рассеян.




0---------0----------0---------0----------0---------0

  1. Даже если я многое сделал, я не удовлетворен, потому что чувствую, что не сделал того, что было важным.





0---------0----------0---------0----------0---------0

  1. Я всегда ориентируюсь на ожидания других и поступаю в соответствии с этим.




0---------0----------0---------0----------0---------0

  1. Мне свойственно откладывать неприятные решения в "долгий ящик"




0---------0----------0---------0----------0---------0

  1. Меня легко отвлечь, даже если я занят тем, что мне нравится.




0---------0----------0---------0----------0---------0

  1. В моей жизни нет ничего такого, чему бы я хотел себя посвятить.





0---------0----------0---------0----------0---------0

  1. Я часто не понимаю, почему именно я должен это делать.




0---------0----------0---------0----------0---------0

  1. Я думаю, что та жизнь, которую я веду, ни на что не годна.




0---------0----------0---------0----------0---------0

  1. Мне трудно понимать смысл вещей




0---------0----------0---------0----------0---------0

  1. Я могу обходиться с самим собой как с хорошим другом.




0---------0----------0---------0----------0---------0

  1. Я слишком мало времени уделяю тому, что является по -настоящему важным




0---------0----------0---------0----------0---------0

  1. У меня сразу никогда не бывает ясности по поводу того, что я могу сделать в какой-либо ситуации





0---------0----------0---------0----------0---------0

  1. Я многое делаю только потому, что я должен это делать, а не потому, что я хочу это сделать





0---------0----------0---------0----------0---------0

  1. Если возникают проблемы, я легко теряю голову

0---------0----------0---------0----------0---------0

  1. Я часто делаю то, что можно с таким же успехом сделать и позже.




0---------0----------0---------0----------0---------0

  1. Мне каждый раз интересно, что принесёт день




0---------0----------0---------0----------0---------0

  1. В большинстве случаев, только начав действовать, я понимаю, какие последствия имеет принятое решение.





0---------0----------0---------0----------0---------0

  1. Если я должен принять решение, я не могу положиться на свои чувства.




0---------0----------0---------0----------0---------0

  1. Неуверенность в исходе дела удерживает меня от его выполнения, даже если я болею за него душой.





0---------0----------0---------0----------0---------0

  1. Я никогда точно не знаю, за что я отвечаю




0---------0----------0---------0----------0---------0

  1. Я чувствую себя внутренне свободным (ой)




0---------0----------0---------0----------0---------0

  1. Из-за того, что жизнь не дала исполниться моим желаниям, я чувствую себя обделенным (ой) ею.




0---------0----------0---------0----------0---------0

  1. Когда я вижу, что у меня нет выбора, я чувствую облегчение.




0---------0----------0---------0----------0---------0

  1. Есть ситуации, в которых я себя чувствую совсем беспомощным (ой)




0---------0----------0---------0----------0---------0

  1. Я делаю много такого, в чём я по-настоящему не разбираюсь




0---------0----------0---------0----------0---------0

  1. Обычно я не знаю, что в ситуации является важным




0---------0----------0---------0----------0---------0

  1. Исполнение собственных желаний стоит для меня на первом месте




0---------0----------0---------0----------0---------0

  1. Мне трудно проникнуться чувствами других.




0---------0----------0---------0----------0---------0

  1. Было бы лучше, если бы меня не было




0---------0----------0---------0----------0---------0

  1. Многое из того, с чем я связан, чуждо мне.




0---------0----------0---------0----------0---------0

  1. Мне нравится формировать собственное мнение




0---------0----------0---------0----------0---------0

  1. Я чувствую, что разрываюсь, потому что одновременно делаю так много вещей.





0---------0----------0---------0----------0---------0

  1. Мне не хватает сил, чтобы довести до конца даже самые важные вещи




0---------0----------0---------0----------0---------0

  1. Я делаю многое просто так, особенно не задумываясь.




0---------0----------0---------0----------0---------0

  1. Ситуация для меня лишь тогда представляет интерес, когда она соответствует моим желаниям





0---------0----------0---------0----------0---------0

  1. Когда я болею, то не знаю, что делать с этим временем.




0---------0----------0---------0----------0---------0

  1. Я редко вижу, что у меня есть разные возможности для действия в ситуации




0---------0----------0---------0----------0---------0

  1. Я нахожу окружающий мир однообразным




0---------0----------0---------0----------0---------0

  1. Вопрос, хочу ли я что-то сделать,редко встает предо мной, потому что чаще всего есть то, что я должен (а) делать.





0---------0----------0---------0----------0---------0

  1. В моей жизни нет ничего действительно хорошего, потому что все имеет свои за и против.

0---------0----------0---------0----------0---------0

  1. Моя внутренняя несвобода и зависимость доставляют мне много хлопот


0---------0----------0---------0----------0---------0

Схожі:

Оцените, пожалуйста, с помощью шкалы iconИнструкция : Ниже предложен список утверждений, характеризующих различные...
Заполните, пожалуйста, все графы, там где представлены варианты ответов – выделите подходящее другим цветом
Оцените, пожалуйста, с помощью шкалы iconЗдравствуйте. Хотим обратиться к Вам за помощью. Верим, что вместе мы сила!!!
Ростовский Онкологический Институт. В нашей стране ничего сделать не могут. Пришло предложение из Лондона на обследование с последующим...
Оцените, пожалуйста, с помощью шкалы iconРичард Вебстер – Чтение ауры для начинающих
Распахнув дверь в новый мир прекрасных видений, вы оцените его неповторимость и свою "слепоту" в прошлом
Оцените, пожалуйста, с помощью шкалы iconЗадания 4-5 для студентов 1 и 2 курса специализация дизайн среды и дизайн костюма
С помощью двух связанных вместе простых карандашей, имитирующих плоское перо, написать буквы b из разных каллиграфических шрифтов...
Оцените, пожалуйста, с помощью шкалы icon1. с помощью построения таблиц истинности доказать формулы
С помощью построения таблиц истинности проверить, является ли формула тавтологией
Оцените, пожалуйста, с помощью шкалы iconВопросы: Если дети считают свои взгляды правильными, они могут не...
Прочтите каждое утверждение, данное ниже, и оцените каждое из них следующим образом
Оцените, пожалуйста, с помощью шкалы iconЯ предпочитаю привычные ситуации (новым). Вопросы, которые нельзя...
Оцените, насколько Вы считаете данные высказывания верными в отношении себя. При оценке используйте следующую шкалу
Оцените, пожалуйста, с помощью шкалы iconЦыгане. Тайны жизни и традиции
Воспользуйтесь книгой как справочником. Изучите цыганскую магию узлов, амулетов, целебных трав и других таинственных и древних средств....
Оцените, пожалуйста, с помощью шкалы iconПомогите вернуть, пожалуйста!!

Оцените, пожалуйста, с помощью шкалы iconАнкета ответьте, пожалуйста, на вопросы

Додайте кнопку на своєму сайті:
Школьные материалы


База даних захищена авторським правом © 2013
звернутися до адміністрації
mir.zavantag.com
Головна сторінка